ISO-10303-21;
HEADER;
FILE_DESCRIPTION (( 'STEP AP203' ),
    '1' );
FILE_NAME ('AL-HD14-5.1x10-40 Äèñòàíöèîííàÿ âòóëêà 5.1x10-40.STEP',
    '2024-12-12T13:54:34',
    ( '' ),
    ( '' ),
    'SwSTEP 2.0',
    'SolidWorks 2021',
    '' );
FILE_SCHEMA (( 'CONFIG_CONTROL_DESIGN' ));
ENDSEC;

DATA;
#1 = AXIS2_PLACEMENT_3D ( 'NONE', #115, #39, #189 ) ;
#2 = ADVANCED_FACE ( 'NONE', ( #154 ), #91, .T. ) ;
#3 = CYLINDRICAL_SURFACE ( 'NONE', #5, 5.000000000000000000 ) ;
#4 = PRODUCT_RELATED_PRODUCT_CATEGORY ( 'detail', '', ( #181 ) ) ;
#5 = AXIS2_PLACEMENT_3D ( 'NONE', #141, #59, #215 ) ;
#6 = LOCAL_TIME ( 16, 54, 34.00000000000000000, #97 ) ;
#7 = AXIS2_PLACEMENT_3D ( 'NONE', #17, #192, #129 ) ;
#8 = ORIENTED_EDGE ( 'NONE', *, *, #193, .F. ) ;
#9 = DIRECTION ( 'NONE',  ( 1.000000000000000000, 0.000000000000000000, 0.000000000000000000 ) ) ;
#10 = CYLINDRICAL_SURFACE ( 'NONE', #23, 2.549999999999999822 ) ;
#11 = ORIENTED_EDGE ( 'NONE', *, *, #77, .T. ) ;
#12 = CALENDAR_DATE ( 2024, 12, 12 ) ;
#13 = CARTESIAN_POINT ( 'NONE',  ( 0.000000000000000000, 0.000000000000000000, 0.000000000000000000 ) ) ;
#14 = LOCAL_TIME ( 16, 54, 34.00000000000000000, #211 ) ;
#15 = ORIENTED_EDGE ( 'NONE', *, *, #147, .F. ) ;
#16 = PERSON_AND_ORGANIZATION_ROLE ( 'creator' ) ;
#17 = CARTESIAN_POINT ( 'NONE',  ( 0.000000000000000000, 0.000000000000000000, 40.00000000000000000 ) ) ;
#18 = DIRECTION ( 'NONE',  ( 1.000000000000000000, 0.000000000000000000, 0.000000000000000000 ) ) ;
#19 = CC_DESIGN_APPROVAL ( #51, ( #218 ) ) ;
#20 = EDGE_LOOP ( 'NONE', ( #144, #180 ) ) ;
#21 = DATE_TIME_ROLE ( 'classification_date' ) ;
#22 = EDGE_CURVE ( 'NONE', #235, #65, #208, .T. ) ;
#23 = AXIS2_PLACEMENT_3D ( 'NONE', #243, #151, #237 ) ;
#24 = AXIS2_PLACEMENT_3D ( 'NONE', #227, #90, #201 ) ;
#25 = APPLICATION_CONTEXT ( 'configuration controlled 3d designs of mechanical parts and assemblies' ) ;
#26 = ADVANCED_FACE ( 'NONE', ( #88 ), #166, .F. ) ;
#27 = DIRECTION ( 'NONE',  ( 1.000000000000000000, 0.000000000000000000, 0.000000000000000000 ) ) ;
#28 = CC_DESIGN_SECURITY_CLASSIFICATION ( #218, ( #121 ) ) ;
#29 = ORIENTED_EDGE ( 'NONE', *, *, #175, .F. ) ;
#30 = ADVANCED_FACE ( 'NONE', ( #107 ), #10, .F. ) ;
#31 = CARTESIAN_POINT ( 'NONE',  ( 0.000000000000000000, 0.000000000000000000, 0.000000000000000000 ) ) ;
#32 = ORIENTED_EDGE ( 'NONE', *, *, #147, .T. ) ;
#33 = CARTESIAN_POINT ( 'NONE',  ( -2.549999999999999822, 0.000000000000000000, 40.00000000000000000 ) ) ;
#34 = CIRCLE ( 'NONE', #1, 2.549999999999999822 ) ;
#35 = ORIENTED_EDGE ( 'NONE', *, *, #193, .T. ) ;
#36 = DATE_AND_TIME ( #188, #6 ) ;
#37 = PERSON_AND_ORGANIZATION ( #148, #197 ) ;
#38 = PERSON_AND_ORGANIZATION_ROLE ( 'creator' ) ;
#39 = DIRECTION ( 'NONE',  ( 0.000000000000000000, 0.000000000000000000, 1.000000000000000000 ) ) ;
#40 = DIRECTION ( 'NONE',  ( -1.000000000000000000, 0.000000000000000000, 0.000000000000000000 ) ) ;
#41 = APPROVAL_DATE_TIME ( #53, #117 ) ;
#42 = APPROVAL_STATUS ( 'not_yet_approved' ) ;
#43 = AXIS2_PLACEMENT_3D ( 'NONE', #67, #92, #244 ) ;
#44 = APPROVAL ( #95, 'UNSPECIFIED' ) ;
#45 = CC_DESIGN_APPROVAL ( #117, ( #121 ) ) ;
#46 = EDGE_LOOP ( 'NONE', ( #29, #221, #224, #104 ) ) ;
#47 = ORIENTED_EDGE ( 'NONE', *, *, #98, .T. ) ;
#48 = DIRECTION ( 'NONE',  ( 0.000000000000000000, 0.000000000000000000, 1.000000000000000000 ) ) ;
#49 = AXIS2_PLACEMENT_3D ( 'NONE', #58, #139, #81 ) ;
#50 = CARTESIAN_POINT ( 'NONE',  ( 2.549999999999999822, 3.122849337825750419E-16, 40.00000000000000000 ) ) ;
#51 = APPROVAL ( #78, 'UNSPECIFIED' ) ;
#52 = EDGE_LOOP ( 'NONE', ( #109, #145, #32, #220 ) ) ;
#53 = DATE_AND_TIME ( #135, #14 ) ;
#54 = APPROVAL_PERSON_ORGANIZATION ( #37, #44, #87 ) ;
#55 = DATE_AND_TIME ( #73, #82 ) ;
#56 = CARTESIAN_POINT ( 'NONE',  ( 0.000000000000000000, 0.000000000000000000, 40.00000000000000000 ) ) ;
#57 = ADVANCED_FACE ( 'NONE', ( #228, #84 ), #72, .F. ) ;
#58 = CARTESIAN_POINT ( 'NONE',  ( 0.000000000000000000, 0.000000000000000000, 0.000000000000000000 ) ) ;
#59 = DIRECTION ( 'NONE',  ( -0.000000000000000000, -0.000000000000000000, -1.000000000000000000 ) ) ;
#60 = AXIS2_PLACEMENT_3D ( 'NONE', #185, #48, #9 ) ;
#61 = VERTEX_POINT ( 'NONE', #203 ) ;
#62 = MECHANICAL_CONTEXT ( 'NONE', #156, 'mechanical' ) ;
#63 = CC_DESIGN_PERSON_AND_ORGANIZATION_ASSIGNMENT ( #99, #38, ( #121 ) ) ;
#64 = DIRECTION ( 'NONE',  ( 1.000000000000000000, 0.000000000000000000, -0.000000000000000000 ) ) ;
#65 = VERTEX_POINT ( 'NONE', #66 ) ;
#66 = CARTESIAN_POINT ( 'NONE',  ( 2.549999999999999822, 3.122849337825750419E-16, 0.000000000000000000 ) ) ;
#67 = CARTESIAN_POINT ( 'NONE',  ( 0.000000000000000000, 0.000000000000000000, 40.00000000000000000 ) ) ;
#68 = UNCERTAINTY_MEASURE_WITH_UNIT (LENGTH_MEASURE( 1.000000000000000082E-05 ), #182, 'distance_accuracy_value', 'NONE');
#69 = VERTEX_POINT ( 'NONE', #131 ) ;
#70 = PERSON_AND_ORGANIZATION_ROLE ( 'classification_officer' ) ;
#71 =( NAMED_UNIT ( * ) SI_UNIT ( $, .STERADIAN. ) SOLID_ANGLE_UNIT ( ) );
#72 = PLANE ( 'NONE',  #216 ) ;
#73 = CALENDAR_DATE ( 2024, 12, 12 ) ;
#74 = SHAPE_DEFINITION_REPRESENTATION ( #85, #102 ) ;
#75 = AXIS2_PLACEMENT_3D ( 'NONE', #56, #124, #190 ) ;
#76 = AXIS2_PLACEMENT_3D ( 'NONE', #120, #196, #27 ) ;
#77 = EDGE_CURVE ( 'NONE', #184, #132, #191, .T. ) ;
#78 = APPROVAL_STATUS ( 'not_yet_approved' ) ;
#79 = AXIS2_PLACEMENT_3D ( 'NONE', #13, #162, #150 ) ;
#80 = DIRECTION ( 'NONE',  ( -0.000000000000000000, -0.000000000000000000, -1.000000000000000000 ) ) ;
#81 = DIRECTION ( 'NONE',  ( 1.000000000000000000, 0.000000000000000000, 0.000000000000000000 ) ) ;
#82 = LOCAL_TIME ( 16, 54, 34.00000000000000000, #245 ) ;
#83 = ORIENTED_EDGE ( 'NONE', *, *, #212, .F. ) ;
#84 = FACE_BOUND ( 'NONE', #161, .T. ) ;
#85 = PRODUCT_DEFINITION_SHAPE ( 'NONE', 'NONE',  #100 ) ;
#86 = CC_DESIGN_APPROVAL ( #44, ( #100 ) ) ;
#87 = APPROVAL_ROLE ( '' ) ;
#88 = FACE_OUTER_BOUND ( 'NONE', #112, .T. ) ;
#89 = ORIENTED_EDGE ( 'NONE', *, *, #116, .T. ) ;
#90 = DIRECTION ( 'NONE',  ( 0.000000000000000000, 0.000000000000000000, 1.000000000000000000 ) ) ;
#91 = CYLINDRICAL_SURFACE ( 'NONE', #75, 5.000000000000000000 ) ;
#92 = DIRECTION ( 'NONE',  ( 0.000000000000000000, 0.000000000000000000, 1.000000000000000000 ) ) ;
#93 = EDGE_LOOP ( 'NONE', ( #174, #176, #8, #123 ) ) ;
#94 = PERSON_AND_ORGANIZATION ( #148, #197 ) ;
#95 = APPROVAL_STATUS ( 'not_yet_approved' ) ;
#96 = DIRECTION ( 'NONE',  ( -0.000000000000000000, -0.000000000000000000, -1.000000000000000000 ) ) ;
#97 = COORDINATED_UNIVERSAL_TIME_OFFSET ( 3, 0, .AHEAD. ) ;
#98 = EDGE_CURVE ( 'NONE', #61, #159, #105, .T. ) ;
#99 = PERSON_AND_ORGANIZATION ( #148, #197 ) ;
#100 = PRODUCT_DEFINITION ( 'UNKNOWN', '', #121, #108 ) ;
#101 = CIRCLE ( 'NONE', #133, 2.549999999999999822 ) ;
#102 = ADVANCED_BREP_SHAPE_REPRESENTATION ( 'AL-HD14-5.1x10-40 -ø¸ªðý¡øþýýð  òªºûúð 5.1x10-40', ( #199, #79 ), #171 ) ;
#103 = ADVANCED_FACE ( 'NONE', ( #238, #209 ), #225, .T. ) ;
#104 = ORIENTED_EDGE ( 'NONE', *, *, #212, .T. ) ;
#105 = CIRCLE ( 'NONE', #157, 5.000000000000000000 ) ;
#106 = CARTESIAN_POINT ( 'NONE',  ( 5.000000000000000000, 6.123233995736766282E-16, 40.00000000000000000 ) ) ;
#107 = FACE_OUTER_BOUND ( 'NONE', #93, .T. ) ;
#108 = DESIGN_CONTEXT ( 'detailed design', #25, 'design' ) ;
#109 = ORIENTED_EDGE ( 'NONE', *, *, #98, .F. ) ;
#110 = CARTESIAN_POINT ( 'NONE',  ( 5.000000000000000000, 6.123233995736766282E-16, 0.000000000000000000 ) ) ;
#111 = CARTESIAN_POINT ( 'NONE',  ( -2.549999999999999822, 0.000000000000000000, 40.00000000000000000 ) ) ;
#112 = EDGE_LOOP ( 'NONE', ( #128, #187, #11, #167 ) ) ;
#113 = CARTESIAN_POINT ( 'NONE',  ( 0.000000000000000000, 0.000000000000000000, 40.00000000000000000 ) ) ;
#114 = LINE ( 'NONE', #229, #249 ) ;
#115 = CARTESIAN_POINT ( 'NONE',  ( 0.000000000000000000, 0.000000000000000000, 40.00000000000000000 ) ) ;
#116 = EDGE_CURVE ( 'NONE', #65, #132, #247, .T. ) ;
#117 = APPROVAL ( #42, 'UNSPECIFIED' ) ;
#118 = APPROVAL_DATE_TIME ( #231, #51 ) ;
#119 = CIRCLE ( 'NONE', #7, 2.549999999999999822 ) ;
#120 = CARTESIAN_POINT ( 'NONE',  ( 0.000000000000000000, 0.000000000000000000, 0.000000000000000000 ) ) ;
#121 = PRODUCT_DEFINITION_FORMATION_WITH_SPECIFIED_SOURCE ( 'ANY', '', #181, .NOT_KNOWN. ) ;
#122 = APPROVAL_PERSON_ORGANIZATION ( #94, #51, #246 ) ;
#123 = ORIENTED_EDGE ( 'NONE', *, *, #77, .F. ) ;
#124 = DIRECTION ( 'NONE',  ( -0.000000000000000000, -0.000000000000000000, -1.000000000000000000 ) ) ;
#125 = AXIS2_PLACEMENT_3D ( 'NONE', #127, #136, #40 ) ;
#126 = DIRECTION ( 'NONE',  ( 1.000000000000000000, 0.000000000000000000, 0.000000000000000000 ) ) ;
#127 = CARTESIAN_POINT ( 'NONE',  ( 0.000000000000000000, 0.000000000000000000, 40.00000000000000000 ) ) ;
#128 = ORIENTED_EDGE ( 'NONE', *, *, #22, .F. ) ;
#129 = DIRECTION ( 'NONE',  ( 1.000000000000000000, 0.000000000000000000, 0.000000000000000000 ) ) ;
#130 = DIRECTION ( 'NONE',  ( 0.000000000000000000, 0.000000000000000000, 1.000000000000000000 ) ) ;
#131 = CARTESIAN_POINT ( 'NONE',  ( -5.000000000000000000, 0.000000000000000000, 0.000000000000000000 ) ) ;
#132 = VERTEX_POINT ( 'NONE', #217 ) ;
#133 = AXIS2_PLACEMENT_3D ( 'NONE', #31, #236, #126 ) ;
#134 = PERSON_AND_ORGANIZATION_ROLE ( 'design_supplier' ) ;
#135 = CALENDAR_DATE ( 2024, 12, 12 ) ;
#136 = DIRECTION ( 'NONE',  ( -0.000000000000000000, -0.000000000000000000, -1.000000000000000000 ) ) ;
#137 = DATE_TIME_ROLE ( 'creation_date' ) ;
#138 = CALENDAR_DATE ( 2024, 12, 12 ) ;
#139 = DIRECTION ( 'NONE',  ( 0.000000000000000000, 0.000000000000000000, 1.000000000000000000 ) ) ;
#140 = ADVANCED_FACE ( 'NONE', ( #173 ), #3, .T. ) ;
#141 = CARTESIAN_POINT ( 'NONE',  ( 0.000000000000000000, 0.000000000000000000, 40.00000000000000000 ) ) ;
#142 = CLOSED_SHELL ( 'NONE', ( #30, #140, #103, #57, #2, #26 ) ) ;
#143 = CIRCLE ( 'NONE', #60, 5.000000000000000000 ) ;
#144 = ORIENTED_EDGE ( 'NONE', *, *, #230, .F. ) ;
#145 = ORIENTED_EDGE ( 'NONE', *, *, #175, .T. ) ;
#146 = PERSON_AND_ORGANIZATION ( #148, #197 ) ;
#147 = EDGE_CURVE ( 'NONE', #204, #69, #223, .T. ) ;
#148 = PERSON ( 'UNSPECIFIED', 'UNSPECIFIED', 'UNSPECIFIED', ('UNSPECIFIED'), ('UNSPECIFIED'), ('UNSPECIFIED') ) ;
#149 = EDGE_LOOP ( 'NONE', ( #200, #47 ) ) ;
#150 = DIRECTION ( 'NONE',  ( 1.000000000000000000, 0.000000000000000000, 0.000000000000000000 ) ) ;
#151 = DIRECTION ( 'NONE',  ( -0.000000000000000000, -0.000000000000000000, -1.000000000000000000 ) ) ;
#152 = COORDINATED_UNIVERSAL_TIME_OFFSET ( 3, 0, .AHEAD. ) ;
#153 = APPLICATION_PROTOCOL_DEFINITION ( 'international standard', 'config_control_design', 1994, #25 ) ;
#154 = FACE_OUTER_BOUND ( 'NONE', #46, .T. ) ;
#155 = PERSON_AND_ORGANIZATION ( #148, #197 ) ;
#156 = APPLICATION_CONTEXT ( 'configuration controlled 3d designs of mechanical parts and assemblies' ) ;
#157 = AXIS2_PLACEMENT_3D ( 'NONE', #113, #186, #18 ) ;
#158 = EDGE_CURVE ( 'NONE', #159, #69, #114, .T. ) ;
#159 = VERTEX_POINT ( 'NONE', #198 ) ;
#160 = CARTESIAN_POINT ( 'NONE',  ( 0.000000000000000000, 0.000000000000000000, 0.000000000000000000 ) ) ;
#161 = EDGE_LOOP ( 'NONE', ( #35, #89 ) ) ;
#162 = DIRECTION ( 'NONE',  ( 0.000000000000000000, 0.000000000000000000, 1.000000000000000000 ) ) ;
#163 = CC_DESIGN_DATE_AND_TIME_ASSIGNMENT ( #169, #137, ( #100 ) ) ;
#164 = PERSON_AND_ORGANIZATION ( #148, #197 ) ;
#165 = CARTESIAN_POINT ( 'NONE',  ( 2.549999999999999822, 3.122849337825750419E-16, 40.00000000000000000 ) ) ;
#166 = CYLINDRICAL_SURFACE ( 'NONE', #125, 2.549999999999999822 ) ;
#167 = ORIENTED_EDGE ( 'NONE', *, *, #116, .F. ) ;
#168 = LINE ( 'NONE', #106, #205 ) ;
#169 = DATE_AND_TIME ( #138, #233 ) ;
#170 = PERSON_AND_ORGANIZATION ( #148, #197 ) ;
#171 =( GEOMETRIC_REPRESENTATION_CONTEXT ( 3 ) GLOBAL_UNCERTAINTY_ASSIGNED_CONTEXT ( ( #68 ) ) GLOBAL_UNIT_ASSIGNED_CONTEXT ( ( #182, #242, #71 ) ) REPRESENTATION_CONTEXT ( 'NONE', 'WORKASPACE' ) );
#172 = EDGE_CURVE ( 'NONE', #235, #184, #119, .T. ) ;
#173 = FACE_OUTER_BOUND ( 'NONE', #52, .T. ) ;
#174 = ORIENTED_EDGE ( 'NONE', *, *, #230, .T. ) ;
#175 = EDGE_CURVE ( 'NONE', #61, #204, #168, .T. ) ;
#176 = ORIENTED_EDGE ( 'NONE', *, *, #22, .T. ) ;
#177 = DIRECTION ( 'NONE',  ( -0.000000000000000000, -0.000000000000000000, -1.000000000000000000 ) ) ;
#178 = DIRECTION ( 'NONE',  ( -0.000000000000000000, -0.000000000000000000, -1.000000000000000000 ) ) ;
#179 = CC_DESIGN_DATE_AND_TIME_ASSIGNMENT ( #36, #21, ( #218 ) ) ;
#180 = ORIENTED_EDGE ( 'NONE', *, *, #172, .F. ) ;
#181 = PRODUCT ( 'AL-HD14-5.1x10-40 Äèñòàíöèîííàÿ âòóëêà 5.1x10-40', 'AL-HD14-5.1x10-40 Äèñòàíöèîííàÿ âòóëêà 5.1x10-40', '', ( #62 ) ) ;
#182 =( LENGTH_UNIT ( ) NAMED_UNIT ( * ) SI_UNIT ( .MILLI., .METRE. ) );
#183 = APPROVAL_PERSON_ORGANIZATION ( #226, #117, #241 ) ;
#184 = VERTEX_POINT ( 'NONE', #33 ) ;
#185 = CARTESIAN_POINT ( 'NONE',  ( 0.000000000000000000, 0.000000000000000000, 40.00000000000000000 ) ) ;
#186 = DIRECTION ( 'NONE',  ( 0.000000000000000000, 0.000000000000000000, 1.000000000000000000 ) ) ;
#187 = ORIENTED_EDGE ( 'NONE', *, *, #172, .T. ) ;
#188 = CALENDAR_DATE ( 2024, 12, 12 ) ;
#189 = DIRECTION ( 'NONE',  ( 1.000000000000000000, 0.000000000000000000, 0.000000000000000000 ) ) ;
#190 = DIRECTION ( 'NONE',  ( -1.000000000000000000, 0.000000000000000000, 0.000000000000000000 ) ) ;
#191 = LINE ( 'NONE', #111, #194 ) ;
#192 = DIRECTION ( 'NONE',  ( 0.000000000000000000, 0.000000000000000000, 1.000000000000000000 ) ) ;
#193 = EDGE_CURVE ( 'NONE', #132, #65, #101, .T. ) ;
#194 = VECTOR ( 'NONE', #96, 1000.000000000000000 ) ;
#195 = CIRCLE ( 'NONE', #24, 5.000000000000000000 ) ;
#196 = DIRECTION ( 'NONE',  ( 0.000000000000000000, 0.000000000000000000, 1.000000000000000000 ) ) ;
#197 = ORGANIZATION ( 'UNSPECIFIED', 'UNSPECIFIED', '' ) ;
#198 = CARTESIAN_POINT ( 'NONE',  ( -5.000000000000000000, 0.000000000000000000, 40.00000000000000000 ) ) ;
#199 = MANIFOLD_SOLID_BREP ( 'Áîáûøêà-Âûòÿíóòü1', #142 ) ;
#200 = ORIENTED_EDGE ( 'NONE', *, *, #219, .T. ) ;
#201 = DIRECTION ( 'NONE',  ( 1.000000000000000000, 0.000000000000000000, 0.000000000000000000 ) ) ;
#202 = CC_DESIGN_PERSON_AND_ORGANIZATION_ASSIGNMENT ( #155, #16, ( #100 ) ) ;
#203 = CARTESIAN_POINT ( 'NONE',  ( 5.000000000000000000, 6.123233995736766282E-16, 40.00000000000000000 ) ) ;
#204 = VERTEX_POINT ( 'NONE', #110 ) ;
#205 = VECTOR ( 'NONE', #177, 1000.000000000000000 ) ;
#206 = SECURITY_CLASSIFICATION_LEVEL ( 'unclassified' ) ;
#207 = APPLICATION_PROTOCOL_DEFINITION ( 'international standard', 'config_control_design', 1994, #156 ) ;
#208 = LINE ( 'NONE', #50, #234 ) ;
#209 = FACE_BOUND ( 'NONE', #20, .T. ) ;
#210 = APPROVAL_DATE_TIME ( #55, #44 ) ;
#211 = COORDINATED_UNIVERSAL_TIME_OFFSET ( 3, 0, .AHEAD. ) ;
#212 = EDGE_CURVE ( 'NONE', #69, #204, #195, .T. ) ;
#213 = COORDINATED_UNIVERSAL_TIME_OFFSET ( 3, 0, .AHEAD. ) ;
#214 = CC_DESIGN_PERSON_AND_ORGANIZATION_ASSIGNMENT ( #146, #222, ( #181 ) ) ;
#215 = DIRECTION ( 'NONE',  ( -1.000000000000000000, 0.000000000000000000, 0.000000000000000000 ) ) ;
#216 = AXIS2_PLACEMENT_3D ( 'NONE', #160, #130, #64 ) ;
#217 = CARTESIAN_POINT ( 'NONE',  ( -2.549999999999999822, 0.000000000000000000, 0.000000000000000000 ) ) ;
#218 = SECURITY_CLASSIFICATION ( '', '', #206 ) ;
#219 = EDGE_CURVE ( 'NONE', #159, #61, #143, .T. ) ;
#220 = ORIENTED_EDGE ( 'NONE', *, *, #158, .F. ) ;
#221 = ORIENTED_EDGE ( 'NONE', *, *, #219, .F. ) ;
#222 = PERSON_AND_ORGANIZATION_ROLE ( 'design_owner' ) ;
#223 = CIRCLE ( 'NONE', #76, 5.000000000000000000 ) ;
#224 = ORIENTED_EDGE ( 'NONE', *, *, #158, .T. ) ;
#225 = PLANE ( 'NONE',  #43 ) ;
#226 = PERSON_AND_ORGANIZATION ( #148, #197 ) ;
#227 = CARTESIAN_POINT ( 'NONE',  ( 0.000000000000000000, 0.000000000000000000, 0.000000000000000000 ) ) ;
#228 = FACE_OUTER_BOUND ( 'NONE', #240, .T. ) ;
#229 = CARTESIAN_POINT ( 'NONE',  ( -5.000000000000000000, 0.000000000000000000, 40.00000000000000000 ) ) ;
#230 = EDGE_CURVE ( 'NONE', #184, #235, #34, .T. ) ;
#231 = DATE_AND_TIME ( #12, #239 ) ;
#232 = CC_DESIGN_PERSON_AND_ORGANIZATION_ASSIGNMENT ( #170, #70, ( #218 ) ) ;
#233 = LOCAL_TIME ( 16, 54, 34.00000000000000000, #213 ) ;
#234 = VECTOR ( 'NONE', #178, 1000.000000000000000 ) ;
#235 = VERTEX_POINT ( 'NONE', #165 ) ;
#236 = DIRECTION ( 'NONE',  ( 0.000000000000000000, 0.000000000000000000, 1.000000000000000000 ) ) ;
#237 = DIRECTION ( 'NONE',  ( -1.000000000000000000, 0.000000000000000000, 0.000000000000000000 ) ) ;
#238 = FACE_OUTER_BOUND ( 'NONE', #149, .T. ) ;
#239 = LOCAL_TIME ( 16, 54, 34.00000000000000000, #152 ) ;
#240 = EDGE_LOOP ( 'NONE', ( #83, #15 ) ) ;
#241 = APPROVAL_ROLE ( '' ) ;
#242 =( NAMED_UNIT ( * ) PLANE_ANGLE_UNIT ( ) SI_UNIT ( $, .RADIAN. ) );
#243 = CARTESIAN_POINT ( 'NONE',  ( 0.000000000000000000, 0.000000000000000000, 40.00000000000000000 ) ) ;
#244 = DIRECTION ( 'NONE',  ( 1.000000000000000000, 0.000000000000000000, -0.000000000000000000 ) ) ;
#245 = COORDINATED_UNIVERSAL_TIME_OFFSET ( 3, 0, .AHEAD. ) ;
#246 = APPROVAL_ROLE ( '' ) ;
#247 = CIRCLE ( 'NONE', #49, 2.549999999999999822 ) ;
#248 = CC_DESIGN_PERSON_AND_ORGANIZATION_ASSIGNMENT ( #164, #134, ( #121 ) ) ;
#249 = VECTOR ( 'NONE', #80, 1000.000000000000000 ) ;
ENDSEC;
END-ISO-10303-21;
